ISO-10303-21;
HEADER;
FILE_DESCRIPTION(('STEP AP214'),'1');
FILE_NAME('uk_20_zz.stp','2019-09-14T12:14:27',('TraceParts'),('TraceParts S.A.'),'Spatial InterOp 3D',' ',' ');
FILE_SCHEMA(('AUTOMOTIVE_DESIGN { 1 0 10303 214 1 1 1 1 }'));
ENDSEC;
DATA;
#1=PRODUCT_DEFINITION_CONTEXT('',#9,'design');
#2=APPLICATION_PROTOCOL_DEFINITION('INTERNATIONAL STANDARD','automotive_design',1994,#9);
#3=PRODUCT_CATEGORY_RELATIONSHIP('NONE','NONE',#10,#11);
#4=SHAPE_DEFINITION_REPRESENTATION(#12,#13);
#5= (GEOMETRIC_REPRESENTATION_CONTEXT(3)GLOBAL_UNCERTAINTY_ASSIGNED_CONTEXT((#16))GLOBAL_UNIT_ASSIGNED_CONTEXT((#18,#19,#20))REPRESENTATION_CONTEXT('NONE','WORKSPACE'));
#9=APPLICATION_CONTEXT(' ');
#10=PRODUCT_CATEGORY('part','NONE');
#11=PRODUCT_RELATED_PRODUCT_CATEGORY('detail',' ',(#22));
#12=PRODUCT_DEFINITION_SHAPE('NONE','NONE',#23);
#13=ADVANCED_BREP_SHAPE_REPRESENTATION('uk_20_zz',(#24,#25),#5);
#16=UNCERTAINTY_MEASURE_WITH_UNIT(LENGTH_MEASURE(1.0E-06),#18,'','');
#18= (CONVERSION_BASED_UNIT('MILLIMETRE',#28)LENGTH_UNIT()NAMED_UNIT(#31));
#19= (NAMED_UNIT(#33)PLANE_ANGLE_UNIT()SI_UNIT($,.RADIAN.));
#20= (NAMED_UNIT(#33)SOLID_ANGLE_UNIT()SI_UNIT($,.STERADIAN.));
#22=PRODUCT('uk_20_zz','uk_20_zz','PART-uk_20_zz-DESC',(#39));
#23=PRODUCT_DEFINITION('','NONE',#40,#1);
#24=MANIFOLD_SOLID_BREP('uk_20_zz',#41);
#25=AXIS2_PLACEMENT_3D('',#42,#43,#44);
#28=LENGTH_MEASURE_WITH_UNIT(LENGTH_MEASURE(1.0),#45);
#31=DIMENSIONAL_EXPONENTS(1.0,0.0,0.0,0.0,0.0,0.0,0.0);
#33=DIMENSIONAL_EXPONENTS(0.0,0.0,0.0,0.0,0.0,0.0,0.0);
#39=PRODUCT_CONTEXT('',#9,'mechanical');
#40=PRODUCT_DEFINITION_FORMATION_WITH_SPECIFIED_SOURCE(' ','NONE',#22,.NOT_KNOWN.);
#41=CLOSED_SHELL('',(#46,#47,#48,#49,#50,#51,#52,#53,#54,#55,#56,#57,#58,#59,#60,#61,#62,#63,#64,#65,#66,#67,#68,#69,#70,#71));
#42=CARTESIAN_POINT('',(0.0,0.0,0.0));
#43=DIRECTION('',(0.0,0.0,1.0));
#44=DIRECTION('',(1.0,0.0,0.0));
#45= (NAMED_UNIT(#31)LENGTH_UNIT()SI_UNIT(.MILLI.,.METRE.));
#46=ADVANCED_FACE('',(#73),#74,.F.);
#47=ADVANCED_FACE('',(#75),#76,.F.);
#48=ADVANCED_FACE('',(#77),#78,.F.);
#49=ADVANCED_FACE('',(#79),#80,.T.);
#50=ADVANCED_FACE('',(#81),#82,.T.);
#51=ADVANCED_FACE('',(#83),#84,.T.);
#52=ADVANCED_FACE('',(#85),#86,.T.);
#53=ADVANCED_FACE('',(#87),#88,.F.);
#54=ADVANCED_FACE('',(#89),#90,.T.);
#55=ADVANCED_FACE('',(#91),#92,.F.);
#56=ADVANCED_FACE('',(#93),#94,.F.);
#57=ADVANCED_FACE('',(#95,#96),#97,.F.);
#58=ADVANCED_FACE('',(#98),#99,.T.);
#59=ADVANCED_FACE('',(#100,#101),#102,.T.);
#60=ADVANCED_FACE('',(#103),#104,.F.);
#61=ADVANCED_FACE('',(#105,#106),#107,.F.);
#62=ADVANCED_FACE('',(#108),#109,.T.);
#63=ADVANCED_FACE('',(#110,#111),#112,.T.);
#64=ADVANCED_FACE('',(#113),#114,.T.);
#65=ADVANCED_FACE('',(#115),#116,.T.);
#66=ADVANCED_FACE('',(#117),#118,.T.);
#67=ADVANCED_FACE('',(#119,#120),#121,.T.);
#68=ADVANCED_FACE('',(#122),#123,.F.);
#69=ADVANCED_FACE('',(#124),#125,.F.);
#70=ADVANCED_FACE('',(#126),#127,.F.);
#71=ADVANCED_FACE('',(#128,#129),#130,.T.);
#73=FACE_OUTER_BOUND('',#131,.T.);
#74=CONICAL_SURFACE('',#132,10.5,0.785398163397448);
#75=FACE_OUTER_BOUND('',#133,.T.);
#76=CYLINDRICAL_SURFACE('',#134,10.0);
#77=FACE_OUTER_BOUND('',#135,.T.);
#78=CONICAL_SURFACE('',#136,10.5,0.785398163397448);
#79=FACE_OUTER_BOUND('',#137,.T.);
#80=CONICAL_SURFACE('',#138,23.0,0.785398163397448);
#81=FACE_OUTER_BOUND('',#139,.T.);
#82=CYLINDRICAL_SURFACE('',#140,23.5);
#83=FACE_OUTER_BOUND('',#141,.T.);
#84=CONICAL_SURFACE('',#142,23.0,0.785398163397448);
#85=FACE_OUTER_BOUND('',#143,.T.);
#86=CONICAL_SURFACE('',#144,15.225,0.785398163397448);
#87=FACE_OUTER_BOUND('',#145,.T.);
#88=CONICAL_SURFACE('',#146,18.275,0.785398163397448);
#89=FACE_OUTER_BOUND('',#147,.T.);
#90=CONICAL_SURFACE('',#148,15.225,0.785398163397448);
#91=FACE_OUTER_BOUND('',#149,.T.);
#92=CONICAL_SURFACE('',#150,18.275,0.785398163397448);
#93=FACE_OUTER_BOUND('',#151,.T.);
#94=CONICAL_SURFACE('',#152,18.275,0.785398163397448);
#95=FACE_BOUND('',#153,.T.);
#96=FACE_OUTER_BOUND('',#154,.T.);
#97=PLANE('',#155);
#98=FACE_OUTER_BOUND('',#156,.T.);
#99=CONICAL_SURFACE('',#157,15.225,0.785398163397448);
#100=FACE_OUTER_BOUND('',#158,.T.);
#101=FACE_BOUND('',#159,.T.);
#102=PLANE('',#160);
#103=FACE_OUTER_BOUND('',#161,.T.);
#104=CONICAL_SURFACE('',#162,18.275,0.785398163397448);
#105=FACE_BOUND('',#163,.T.);
#106=FACE_OUTER_BOUND('',#164,.T.);
#107=PLANE('',#165);
#108=FACE_OUTER_BOUND('',#166,.T.);
#109=CONICAL_SURFACE('',#167,15.225,0.785398163397448);
#110=FACE_OUTER_BOUND('',#168,.T.);
#111=FACE_BOUND('',#169,.T.);
#112=PLANE('',#170);
#113=FACE_OUTER_BOUND('',#171,.T.);
#114=CONICAL_SURFACE('',#172,23.0,0.785398163397448);
#115=FACE_OUTER_BOUND('',#173,.T.);
#116=CYLINDRICAL_SURFACE('',#174,23.5);
#117=FACE_OUTER_BOUND('',#175,.T.);
#118=CONICAL_SURFACE('',#176,23.0,0.785398163397448);
#119=FACE_BOUND('',#177,.T.);
#120=FACE_OUTER_BOUND('',#178,.T.);
#121=PLANE('',#179);
#122=FACE_OUTER_BOUND('',#180,.T.);
#123=CONICAL_SURFACE('',#181,10.5,0.785398163397448);
#124=FACE_OUTER_BOUND('',#182,.T.);
#125=CYLINDRICAL_SURFACE('',#183,10.0);
#126=FACE_OUTER_BOUND('',#184,.T.);
#127=CONICAL_SURFACE('',#185,10.5,0.785398163397448);
#128=FACE_BOUND('',#186,.T.);
#129=FACE_OUTER_BOUND('',#187,.T.);
#130=PLANE('',#188);
#131=EDGE_LOOP('',(#189,#190,#191,#192));
#132=AXIS2_PLACEMENT_3D('',#193,#194,#195);
#133=EDGE_LOOP('',(#196,#197,#198,#199));
#134=AXIS2_PLACEMENT_3D('',#200,#201,#202);
#135=EDGE_LOOP('',(#203,#204,#205,#206));
#136=AXIS2_PLACEMENT_3D('',#207,#208,#209);
#137=EDGE_LOOP('',(#210,#211,#212,#213));
#138=AXIS2_PLACEMENT_3D('',#214,#215,#216);
#139=EDGE_LOOP('',(#217,#218,#219,#220));
#140=AXIS2_PLACEMENT_3D('',#221,#222,#223);
#141=EDGE_LOOP('',(#224,#225,#226,#227));
#142=AXIS2_PLACEMENT_3D('',#228,#229,#230);
#143=EDGE_LOOP('',(#231,#232,#233,#234));
#144=AXIS2_PLACEMENT_3D('',#235,#236,#237);
#145=EDGE_LOOP('',(#238,#239,#240,#241));
#146=AXIS2_PLACEMENT_3D('',#242,#243,#244);
#147=EDGE_LOOP('',(#245,#246,#247,#248));
#148=AXIS2_PLACEMENT_3D('',#249,#250,#251);
#149=EDGE_LOOP('',(#252,#253,#254,#255));
#150=AXIS2_PLACEMENT_3D('',#256,#257,#258);
#151=EDGE_LOOP('',(#259,#260,#261,#262));
#152=AXIS2_PLACEMENT_3D('',#263,#264,#265);
#153=EDGE_LOOP('',(#266,#267));
#154=EDGE_LOOP('',(#268,#269));
#155=AXIS2_PLACEMENT_3D('',#270,#271,#272);
#156=EDGE_LOOP('',(#273,#274,#275,#276));
#157=AXIS2_PLACEMENT_3D('',#277,#278,#279);
#158=EDGE_LOOP('',(#280,#281));
#159=EDGE_LOOP('',(#282,#283));
#160=AXIS2_PLACEMENT_3D('',#284,#285,#286);
#161=EDGE_LOOP('',(#287,#288,#289,#290));
#162=AXIS2_PLACEMENT_3D('',#291,#292,#293);
#163=EDGE_LOOP('',(#294,#295));
#164=EDGE_LOOP('',(#296,#297));
#165=AXIS2_PLACEMENT_3D('',#298,#299,#300);
#166=EDGE_LOOP('',(#301,#302,#303,#304));
#167=AXIS2_PLACEMENT_3D('',#305,#306,#307);
#168=EDGE_LOOP('',(#308,#309));
#169=EDGE_LOOP('',(#310,#311));
#170=AXIS2_PLACEMENT_3D('',#312,#313,#314);
#171=EDGE_LOOP('',(#315,#316,#317,#318));
#172=AXIS2_PLACEMENT_3D('',#319,#320,#321);
#173=EDGE_LOOP('',(#322,#323,#324,#325));
#174=AXIS2_PLACEMENT_3D('',#326,#327,#328);
#175=EDGE_LOOP('',(#329,#330,#331,#332));
#176=AXIS2_PLACEMENT_3D('',#333,#334,#335);
#177=EDGE_LOOP('',(#336,#337));
#178=EDGE_LOOP('',(#338,#339));
#179=AXIS2_PLACEMENT_3D('',#340,#341,#342);
#180=EDGE_LOOP('',(#343,#344,#345,#346));
#181=AXIS2_PLACEMENT_3D('',#347,#348,#349);
#182=EDGE_LOOP('',(#350,#351,#352,#353));
#183=AXIS2_PLACEMENT_3D('',#354,#355,#356);
#184=EDGE_LOOP('',(#357,#358,#359,#360));
#185=AXIS2_PLACEMENT_3D('',#361,#362,#363);
#186=EDGE_LOOP('',(#364,#365));
#187=EDGE_LOOP('',(#366,#367));
#188=AXIS2_PLACEMENT_3D('',#368,#369,#370);
#189=ORIENTED_EDGE('',*,*,#371,.F.);
#190=ORIENTED_EDGE('',*,*,#372,.F.);
#191=ORIENTED_EDGE('',*,*,#373,.F.);
#192=ORIENTED_EDGE('',*,*,#374,.T.);
#193=CARTESIAN_POINT('',(0.5,0.0,0.0));
#194=DIRECTION('',(-1.0,-0.0,-0.0));
#195=DIRECTION('',(0.0,1.0,0.0));
#196=ORIENTED_EDGE('',*,*,#375,.F.);
#197=ORIENTED_EDGE('',*,*,#374,.F.);
#198=ORIENTED_EDGE('',*,*,#376,.F.);
#199=ORIENTED_EDGE('',*,*,#377,.T.);
#200=CARTESIAN_POINT('',(7.0,0.0,0.0));
#201=DIRECTION('',(1.0,0.0,0.0));
#202=DIRECTION('',(0.0,1.0,0.0));
#203=ORIENTED_EDGE('',*,*,#378,.F.);
#204=ORIENTED_EDGE('',*,*,#377,.F.);
#205=ORIENTED_EDGE('',*,*,#379,.F.);
#206=ORIENTED_EDGE('',*,*,#380,.T.);
#207=CARTESIAN_POINT('',(13.5,0.0,0.0));
#208=DIRECTION('',(1.0,-0.0,-0.0));
#209=DIRECTION('',(0.0,1.0,0.0));
#210=ORIENTED_EDGE('',*,*,#381,.F.);
#211=ORIENTED_EDGE('',*,*,#382,.T.);
#212=ORIENTED_EDGE('',*,*,#383,.F.);
#213=ORIENTED_EDGE('',*,*,#384,.F.);
#214=CARTESIAN_POINT('',(13.5,0.0,0.0));
#215=DIRECTION('',(-1.0,-0.0,-0.0));
#216=DIRECTION('',(0.0,1.0,0.0));
#217=ORIENTED_EDGE('',*,*,#385,.F.);
#218=ORIENTED_EDGE('',*,*,#386,.T.);
#219=ORIENTED_EDGE('',*,*,#387,.F.);
#220=ORIENTED_EDGE('',*,*,#382,.F.);
#221=CARTESIAN_POINT('',(7.0,0.0,0.0));
#222=DIRECTION('',(1.0,0.0,0.0));
#223=DIRECTION('',(0.0,1.0,0.0));
#224=ORIENTED_EDGE('',*,*,#388,.F.);
#225=ORIENTED_EDGE('',*,*,#389,.T.);
#226=ORIENTED_EDGE('',*,*,#390,.F.);
#227=ORIENTED_EDGE('',*,*,#386,.F.);
#228=CARTESIAN_POINT('',(0.5,0.0,0.0));
#229=DIRECTION('',(1.0,-0.0,-0.0));
#230=DIRECTION('',(0.0,1.0,0.0));
#231=ORIENTED_EDGE('',*,*,#391,.F.);
#232=ORIENTED_EDGE('',*,*,#392,.F.);
#233=ORIENTED_EDGE('',*,*,#393,.F.);
#234=ORIENTED_EDGE('',*,*,#394,.F.);
#235=CARTESIAN_POINT('',(0.5,0.0,0.0));
#236=DIRECTION('',(1.0,-0.0,-0.0));
#237=DIRECTION('',(0.0,1.0,0.0));
#238=ORIENTED_EDGE('',*,*,#395,.F.);
#239=ORIENTED_EDGE('',*,*,#396,.T.);
#240=ORIENTED_EDGE('',*,*,#397,.F.);
#241=ORIENTED_EDGE('',*,*,#398,.F.);
#242=CARTESIAN_POINT('',(0.5,0.0,0.0));
#243=DIRECTION('',(-1.0,-0.0,-0.0));
#244=DIRECTION('',(0.0,1.0,0.0));
#245=ORIENTED_EDGE('',*,*,#399,.F.);
#246=ORIENTED_EDGE('',*,*,#400,.F.);
#247=ORIENTED_EDGE('',*,*,#401,.F.);
#248=ORIENTED_EDGE('',*,*,#402,.F.);
#249=CARTESIAN_POINT('',(13.5,0.0,7.95994129984545E-16));
#250=DIRECTION('',(-1.0,0.0,-1.22460635382238E-16));
#251=DIRECTION('',(0.0,1.0,0.0));
#252=ORIENTED_EDGE('',*,*,#403,.F.);
#253=ORIENTED_EDGE('',*,*,#404,.T.);
#254=ORIENTED_EDGE('',*,*,#405,.F.);
#255=ORIENTED_EDGE('',*,*,#406,.F.);
#256=CARTESIAN_POINT('',(13.5,0.0,7.95994129984545E-16));
#257=DIRECTION('',(1.0,-0.0,1.22460635382238E-16));
#258=DIRECTION('',(0.0,1.0,0.0));
#259=ORIENTED_EDGE('',*,*,#403,.T.);
#260=ORIENTED_EDGE('',*,*,#407,.F.);
#261=ORIENTED_EDGE('',*,*,#405,.T.);
#262=ORIENTED_EDGE('',*,*,#408,.T.);
#263=CARTESIAN_POINT('',(13.5,0.0,7.95994129984545E-16));
#264=DIRECTION('',(1.0,-0.0,1.22460635382238E-16));
#265=DIRECTION('',(0.0,1.0,0.0));
#266=ORIENTED_EDGE('',*,*,#409,.T.);
#267=ORIENTED_EDGE('',*,*,#400,.T.);
#268=ORIENTED_EDGE('',*,*,#404,.F.);
#269=ORIENTED_EDGE('',*,*,#408,.F.);
#270=CARTESIAN_POINT('',(13.0,16.75,7.34763812293426E-16));
#271=DIRECTION('',(-1.0,0.0,-1.22460635382238E-16));
#272=DIRECTION('',(0.0,1.0,0.0));
#273=ORIENTED_EDGE('',*,*,#399,.T.);
#274=ORIENTED_EDGE('',*,*,#410,.F.);
#275=ORIENTED_EDGE('',*,*,#401,.T.);
#276=ORIENTED_EDGE('',*,*,#409,.F.);
#277=CARTESIAN_POINT('',(13.5,0.0,7.95994129984545E-16));
#278=DIRECTION('',(-1.0,0.0,-1.22460635382238E-16));
#279=DIRECTION('',(0.0,1.0,0.0));
#280=ORIENTED_EDGE('',*,*,#402,.T.);
#281=ORIENTED_EDGE('',*,*,#410,.T.);
#282=ORIENTED_EDGE('',*,*,#411,.F.);
#283=ORIENTED_EDGE('',*,*,#380,.F.);
#284=CARTESIAN_POINT('',(14.0,16.75,0.0));
#285=DIRECTION('',(1.0,0.0,0.0));
#286=DIRECTION('',(-0.0,1.0,-0.0));
#287=ORIENTED_EDGE('',*,*,#395,.T.);
#288=ORIENTED_EDGE('',*,*,#412,.F.);
#289=ORIENTED_EDGE('',*,*,#397,.T.);
#290=ORIENTED_EDGE('',*,*,#413,.T.);
#291=CARTESIAN_POINT('',(0.5,0.0,0.0));
#292=DIRECTION('',(-1.0,-0.0,-0.0));
#293=DIRECTION('',(0.0,1.0,0.0));
#294=ORIENTED_EDGE('',*,*,#414,.T.);
#295=ORIENTED_EDGE('',*,*,#392,.T.);
#296=ORIENTED_EDGE('',*,*,#396,.F.);
#297=ORIENTED_EDGE('',*,*,#413,.F.);
#298=CARTESIAN_POINT('',(1.0,16.75,0.0));
#299=DIRECTION('',(1.0,0.0,0.0));
#300=DIRECTION('',(0.0,1.0,0.0));
#301=ORIENTED_EDGE('',*,*,#391,.T.);
#302=ORIENTED_EDGE('',*,*,#415,.F.);
#303=ORIENTED_EDGE('',*,*,#393,.T.);
#304=ORIENTED_EDGE('',*,*,#414,.F.);
#305=CARTESIAN_POINT('',(0.5,0.0,0.0));
#306=DIRECTION('',(1.0,-0.0,-0.0));
#307=DIRECTION('',(0.0,1.0,0.0));
#308=ORIENTED_EDGE('',*,*,#394,.T.);
#309=ORIENTED_EDGE('',*,*,#415,.T.);
#310=ORIENTED_EDGE('',*,*,#416,.T.);
#311=ORIENTED_EDGE('',*,*,#372,.T.);
#312=CARTESIAN_POINT('',(0.0,16.75,0.0));
#313=DIRECTION('',(-1.0,-0.0,0.0));
#314=DIRECTION('',(0.0,-1.0,-0.0));
#315=ORIENTED_EDGE('',*,*,#388,.T.);
#316=ORIENTED_EDGE('',*,*,#417,.F.);
#317=ORIENTED_EDGE('',*,*,#390,.T.);
#318=ORIENTED_EDGE('',*,*,#418,.T.);
#319=CARTESIAN_POINT('',(0.5,0.0,0.0));
#320=DIRECTION('',(1.0,-0.0,-0.0));
#321=DIRECTION('',(0.0,1.0,0.0));
#322=ORIENTED_EDGE('',*,*,#385,.T.);
#323=ORIENTED_EDGE('',*,*,#419,.F.);
#324=ORIENTED_EDGE('',*,*,#387,.T.);
#325=ORIENTED_EDGE('',*,*,#417,.T.);
#326=CARTESIAN_POINT('',(7.0,0.0,0.0));
#327=DIRECTION('',(1.0,0.0,0.0));
#328=DIRECTION('',(0.0,1.0,0.0));
#329=ORIENTED_EDGE('',*,*,#381,.T.);
#330=ORIENTED_EDGE('',*,*,#420,.F.);
#331=ORIENTED_EDGE('',*,*,#383,.T.);
#332=ORIENTED_EDGE('',*,*,#419,.T.);
#333=CARTESIAN_POINT('',(13.5,0.0,0.0));
#334=DIRECTION('',(-1.0,-0.0,-0.0));
#335=DIRECTION('',(0.0,1.0,0.0));
#336=ORIENTED_EDGE('',*,*,#406,.T.);
#337=ORIENTED_EDGE('',*,*,#407,.T.);
#338=ORIENTED_EDGE('',*,*,#384,.T.);
#339=ORIENTED_EDGE('',*,*,#420,.T.);
#340=CARTESIAN_POINT('',(14.0,16.75,0.0));
#341=DIRECTION('',(1.0,0.0,0.0));
#342=DIRECTION('',(-0.0,1.0,-0.0));
#343=ORIENTED_EDGE('',*,*,#378,.T.);
#344=ORIENTED_EDGE('',*,*,#411,.T.);
#345=ORIENTED_EDGE('',*,*,#379,.T.);
#346=ORIENTED_EDGE('',*,*,#421,.F.);
#347=CARTESIAN_POINT('',(13.5,0.0,0.0));
#348=DIRECTION('',(1.0,-0.0,-0.0));
#349=DIRECTION('',(0.0,1.0,0.0));
#350=ORIENTED_EDGE('',*,*,#375,.T.);
#351=ORIENTED_EDGE('',*,*,#421,.T.);
#352=ORIENTED_EDGE('',*,*,#376,.T.);
#353=ORIENTED_EDGE('',*,*,#422,.F.);
#354=CARTESIAN_POINT('',(7.0,0.0,0.0));
#355=DIRECTION('',(1.0,0.0,0.0));
#356=DIRECTION('',(0.0,1.0,0.0));
#357=ORIENTED_EDGE('',*,*,#371,.T.);
#358=ORIENTED_EDGE('',*,*,#422,.T.);
#359=ORIENTED_EDGE('',*,*,#373,.T.);
#360=ORIENTED_EDGE('',*,*,#416,.F.);
#361=CARTESIAN_POINT('',(0.5,0.0,0.0));
#362=DIRECTION('',(-1.0,-0.0,-0.0));
#363=DIRECTION('',(0.0,1.0,0.0));
#364=ORIENTED_EDGE('',*,*,#398,.T.);
#365=ORIENTED_EDGE('',*,*,#412,.T.);
#366=ORIENTED_EDGE('',*,*,#389,.F.);
#367=ORIENTED_EDGE('',*,*,#418,.F.);
#368=CARTESIAN_POINT('',(0.0,16.75,0.0));
#369=DIRECTION('',(-1.0,-0.0,0.0));
#370=DIRECTION('',(0.0,-1.0,-0.0));
#371=EDGE_CURVE('',#423,#424,#425,.T.);
#372=EDGE_CURVE('',#426,#423,#427,.T.);
#373=EDGE_CURVE('',#428,#426,#429,.T.);
#374=EDGE_CURVE('',#428,#424,#430,.T.);
#375=EDGE_CURVE('',#424,#431,#432,.T.);
#376=EDGE_CURVE('',#433,#428,#434,.T.);
#377=EDGE_CURVE('',#433,#431,#435,.T.);
#378=EDGE_CURVE('',#431,#436,#437,.T.);
#379=EDGE_CURVE('',#438,#433,#439,.T.);
#380=EDGE_CURVE('',#438,#436,#440,.T.);
#381=EDGE_CURVE('',#441,#442,#443,.T.);
#382=EDGE_CURVE('',#441,#444,#445,.T.);
#383=EDGE_CURVE('',#446,#444,#447,.T.);
#384=EDGE_CURVE('',#442,#446,#448,.T.);
#385=EDGE_CURVE('',#449,#441,#450,.T.);
#386=EDGE_CURVE('',#449,#451,#452,.T.);
#387=EDGE_CURVE('',#444,#451,#453,.T.);
#388=EDGE_CURVE('',#454,#449,#455,.T.);
#389=EDGE_CURVE('',#454,#456,#457,.T.);
#390=EDGE_CURVE('',#451,#456,#458,.T.);
#391=EDGE_CURVE('',#459,#460,#461,.T.);
#392=EDGE_CURVE('',#462,#459,#463,.T.);
#393=EDGE_CURVE('',#464,#462,#465,.T.);
#394=EDGE_CURVE('',#460,#464,#466,.T.);
#395=EDGE_CURVE('',#467,#468,#469,.T.);
#396=EDGE_CURVE('',#467,#470,#471,.T.);
#397=EDGE_CURVE('',#472,#470,#473,.T.);
#398=EDGE_CURVE('',#468,#472,#474,.T.);
#399=EDGE_CURVE('',#475,#476,#477,.T.);
#400=EDGE_CURVE('',#478,#475,#479,.T.);
#401=EDGE_CURVE('',#480,#478,#481,.T.);
#402=EDGE_CURVE('',#476,#480,#482,.T.);
#403=EDGE_CURVE('',#483,#484,#485,.T.);
#404=EDGE_CURVE('',#483,#486,#487,.T.);
#405=EDGE_CURVE('',#488,#486,#489,.T.);
#406=EDGE_CURVE('',#484,#488,#490,.T.);
#407=EDGE_CURVE('',#488,#484,#491,.T.);
#408=EDGE_CURVE('',#486,#483,#492,.T.);
#409=EDGE_CURVE('',#475,#478,#493,.T.);
#410=EDGE_CURVE('',#480,#476,#494,.T.);
#411=EDGE_CURVE('',#436,#438,#495,.T.);
#412=EDGE_CURVE('',#472,#468,#496,.T.);
#413=EDGE_CURVE('',#470,#467,#497,.T.);
#414=EDGE_CURVE('',#459,#462,#498,.T.);
#415=EDGE_CURVE('',#464,#460,#499,.T.);
#416=EDGE_CURVE('',#423,#426,#500,.T.);
#417=EDGE_CURVE('',#451,#449,#501,.T.);
#418=EDGE_CURVE('',#456,#454,#502,.T.);
#419=EDGE_CURVE('',#444,#441,#503,.T.);
#420=EDGE_CURVE('',#446,#442,#504,.T.);
#421=EDGE_CURVE('',#431,#433,#505,.T.);
#422=EDGE_CURVE('',#424,#428,#506,.T.);
#423=VERTEX_POINT('',#507);
#424=VERTEX_POINT('',#508);
#425=LINE('',#509,#510);
#426=VERTEX_POINT('',#511);
#427=CIRCLE('',#512,11.0);
#428=VERTEX_POINT('',#513);
#429=LINE('',#514,#515);
#430=CIRCLE('',#516,10.0);
#431=VERTEX_POINT('',#517);
#432=LINE('',#518,#519);
#433=VERTEX_POINT('',#520);
#434=LINE('',#521,#522);
#435=CIRCLE('',#523,10.0);
#436=VERTEX_POINT('',#524);
#437=LINE('',#525,#526);
#438=VERTEX_POINT('',#527);
#439=LINE('',#528,#529);
#440=CIRCLE('',#530,11.0);
#441=VERTEX_POINT('',#531);
#442=VERTEX_POINT('',#532);
#443=LINE('',#533,#534);
#444=VERTEX_POINT('',#535);
#445=CIRCLE('',#536,23.5);
#446=VERTEX_POINT('',#537);
#447=LINE('',#538,#539);
#448=CIRCLE('',#540,22.5);
#449=VERTEX_POINT('',#541);
#450=LINE('',#542,#543);
#451=VERTEX_POINT('',#544);
#452=CIRCLE('',#545,23.5);
#453=LINE('',#546,#547);
#454=VERTEX_POINT('',#548);
#455=LINE('',#549,#550);
#456=VERTEX_POINT('',#551);
#457=CIRCLE('',#552,22.5);
#458=LINE('',#553,#554);
#459=VERTEX_POINT('',#555);
#460=VERTEX_POINT('',#556);
#461=LINE('',#557,#558);
#462=VERTEX_POINT('',#559);
#463=CIRCLE('',#560,15.725);
#464=VERTEX_POINT('',#561);
#465=LINE('',#562,#563);
#466=CIRCLE('',#564,14.725);
#467=VERTEX_POINT('',#565);
#468=VERTEX_POINT('',#566);
#469=LINE('',#567,#568);
#470=VERTEX_POINT('',#569);
#471=CIRCLE('',#570,17.775);
#472=VERTEX_POINT('',#571);
#473=LINE('',#572,#573);
#474=CIRCLE('',#574,18.775);
#475=VERTEX_POINT('',#575);
#476=VERTEX_POINT('',#576);
#477=LINE('',#577,#578);
#478=VERTEX_POINT('',#579);
#479=CIRCLE('',#580,15.725);
#480=VERTEX_POINT('',#581);
#481=LINE('',#582,#583);
#482=CIRCLE('',#584,14.725);
#483=VERTEX_POINT('',#585);
#484=VERTEX_POINT('',#586);
#485=LINE('',#587,#588);
#486=VERTEX_POINT('',#589);
#487=CIRCLE('',#590,17.775);
#488=VERTEX_POINT('',#591);
#489=LINE('',#592,#593);
#490=CIRCLE('',#594,18.775);
#491=CIRCLE('',#595,18.775);
#492=CIRCLE('',#596,17.775);
#493=CIRCLE('',#597,15.725);
#494=CIRCLE('',#598,14.725);
#495=CIRCLE('',#599,11.0);
#496=CIRCLE('',#600,18.775);
#497=CIRCLE('',#601,17.775);
#498=CIRCLE('',#602,15.725);
#499=CIRCLE('',#603,14.725);
#500=CIRCLE('',#604,11.0);
#501=CIRCLE('',#605,23.5);
#502=CIRCLE('',#606,22.5);
#503=CIRCLE('',#607,23.5);
#504=CIRCLE('',#608,22.5);
#505=CIRCLE('',#609,10.0);
#506=CIRCLE('',#610,10.0);
#507=CARTESIAN_POINT('',(0.0,11.0,0.0));
#508=CARTESIAN_POINT('',(1.0,10.0,0.0));
#509=CARTESIAN_POINT('',(0.5,10.5,-1.2858366715135E-15));
#510=VECTOR('',#611,1.0);
#511=CARTESIAN_POINT('',(0.0,-11.0,1.34706698920461E-15));
#512=AXIS2_PLACEMENT_3D('',#612,#613,#614);
#513=CARTESIAN_POINT('',(1.0,-10.0,1.22460635382238E-15));
#514=CARTESIAN_POINT('',(0.5,-10.5,1.2858366715135E-15));
#515=VECTOR('',#615,1.0);
#516=AXIS2_PLACEMENT_3D('',#616,#617,#618);
#517=CARTESIAN_POINT('',(13.0,10.0,0.0));
#518=CARTESIAN_POINT('',(7.0,10.0,-1.22460635382238E-15));
#519=VECTOR('',#619,1.0);
#520=CARTESIAN_POINT('',(13.0,-10.0,1.22460635382238E-15));
#521=CARTESIAN_POINT('',(7.0,-10.0,1.22460635382238E-15));
#522=VECTOR('',#620,1.0);
#523=AXIS2_PLACEMENT_3D('',#621,#622,#623);
#524=CARTESIAN_POINT('',(14.0,11.0,0.0));
#525=CARTESIAN_POINT('',(13.5,10.5,-1.2858366715135E-15));
#526=VECTOR('',#624,1.0);
#527=CARTESIAN_POINT('',(14.0,-11.0,1.34706698920461E-15));
#528=CARTESIAN_POINT('',(13.5,-10.5,1.2858366715135E-15));
#529=VECTOR('',#625,1.0);
#530=AXIS2_PLACEMENT_3D('',#626,#627,#628);
#531=CARTESIAN_POINT('',(13.0,23.5,0.0));
#532=CARTESIAN_POINT('',(14.0,22.5,0.0));
#533=CARTESIAN_POINT('',(13.5,23.0,-2.81659461379147E-15));
#534=VECTOR('',#629,1.0);
#535=CARTESIAN_POINT('',(13.0,-23.5,2.87782493148259E-15));
#536=AXIS2_PLACEMENT_3D('',#630,#631,#632);
#537=CARTESIAN_POINT('',(14.0,-22.5,2.75536429610035E-15));
#538=CARTESIAN_POINT('',(13.5,-23.0,2.81659461379147E-15));
#539=VECTOR('',#633,1.0);
#540=AXIS2_PLACEMENT_3D('',#634,#635,#636);
#541=CARTESIAN_POINT('',(1.0,23.5,0.0));
#542=CARTESIAN_POINT('',(7.0,23.5,-2.87782493148259E-15));
#543=VECTOR('',#637,1.0);
#544=CARTESIAN_POINT('',(1.0,-23.5,2.87782493148259E-15));
#545=AXIS2_PLACEMENT_3D('',#638,#639,#640);
#546=CARTESIAN_POINT('',(7.0,-23.5,2.87782493148259E-15));
#547=VECTOR('',#641,1.0);
#548=CARTESIAN_POINT('',(0.0,22.5,0.0));
#549=CARTESIAN_POINT('',(0.5,23.0,-2.81659461379147E-15));
#550=VECTOR('',#642,1.0);
#551=CARTESIAN_POINT('',(0.0,-22.5,2.75536429610035E-15));
#552=AXIS2_PLACEMENT_3D('',#643,#644,#645);
#553=CARTESIAN_POINT('',(0.5,-23.0,2.81659461379147E-15));
#554=VECTOR('',#646,1.0);
#555=CARTESIAN_POINT('',(1.0,15.725,0.0));
#556=CARTESIAN_POINT('',(0.0,14.725,0.0));
#557=CARTESIAN_POINT('',(0.5,15.225,-1.86446317369457E-15));
#558=VECTOR('',#647,1.0);
#559=CARTESIAN_POINT('',(1.0,-15.725,1.92569349138569E-15));
#560=AXIS2_PLACEMENT_3D('',#648,#649,#650);
#561=CARTESIAN_POINT('',(0.0,-14.725,1.80323285600345E-15));
#562=CARTESIAN_POINT('',(0.5,-15.225,1.86446317369457E-15));
#563=VECTOR('',#651,1.0);
#564=AXIS2_PLACEMENT_3D('',#652,#653,#654);
#565=CARTESIAN_POINT('',(1.0,17.775,0.0));
#566=CARTESIAN_POINT('',(0.0,18.775,0.0));
#567=CARTESIAN_POINT('',(0.5,18.275,-2.23796811161039E-15));
#568=VECTOR('',#655,1.0);
#569=CARTESIAN_POINT('',(1.0,-17.775,2.17673779391928E-15));
#570=AXIS2_PLACEMENT_3D('',#656,#657,#658);
#571=CARTESIAN_POINT('',(0.0,-18.775,2.29919842930151E-15));
#572=CARTESIAN_POINT('',(0.5,-18.275,2.23796811161039E-15));
#573=VECTOR('',#659,1.0);
#574=AXIS2_PLACEMENT_3D('',#660,#661,#662);
#575=CARTESIAN_POINT('',(13.0,15.725,7.34763812293426E-16));
#576=CARTESIAN_POINT('',(14.0,14.725,8.57224447675664E-16));
#577=CARTESIAN_POINT('',(13.5,15.225,2.66045730367911E-15));
#578=VECTOR('',#663,1.0);
#579=CARTESIAN_POINT('',(13.0,-15.725,-1.19092967909226E-15));
#580=AXIS2_PLACEMENT_3D('',#664,#665,#666);
#581=CARTESIAN_POINT('',(14.0,-14.725,-9.46008408327787E-16));
#582=CARTESIAN_POINT('',(13.5,-15.225,-1.06846904371002E-15));
#583=VECTOR('',#667,1.0);
#584=AXIS2_PLACEMENT_3D('',#668,#669,#670);
#585=CARTESIAN_POINT('',(13.0,17.775,7.34763812293426E-16));
#586=CARTESIAN_POINT('',(14.0,18.775,8.57224447675664E-16));
#587=CARTESIAN_POINT('',(13.5,18.275,3.03396224159494E-15));
#588=VECTOR('',#671,1.0);
#589=CARTESIAN_POINT('',(13.0,-17.775,-1.44197398162585E-15));
#590=AXIS2_PLACEMENT_3D('',#672,#673,#674);
#591=CARTESIAN_POINT('',(14.0,-18.775,-1.44197398162585E-15));
#592=CARTESIAN_POINT('',(13.5,-18.275,-1.44197398162585E-15));
#593=VECTOR('',#675,1.0);
#594=AXIS2_PLACEMENT_3D('',#676,#677,#678);
#595=AXIS2_PLACEMENT_3D('',#679,#680,#681);
#596=AXIS2_PLACEMENT_3D('',#682,#683,#684);
#597=AXIS2_PLACEMENT_3D('',#685,#686,#687);
#598=AXIS2_PLACEMENT_3D('',#688,#689,#690);
#599=AXIS2_PLACEMENT_3D('',#691,#692,#693);
#600=AXIS2_PLACEMENT_3D('',#694,#695,#696);
#601=AXIS2_PLACEMENT_3D('',#697,#698,#699);
#602=AXIS2_PLACEMENT_3D('',#700,#701,#702);
#603=AXIS2_PLACEMENT_3D('',#703,#704,#705);
#604=AXIS2_PLACEMENT_3D('',#706,#707,#708);
#605=AXIS2_PLACEMENT_3D('',#709,#710,#711);
#606=AXIS2_PLACEMENT_3D('',#712,#713,#714);
#607=AXIS2_PLACEMENT_3D('',#715,#716,#717);
#608=AXIS2_PLACEMENT_3D('',#718,#719,#720);
#609=AXIS2_PLACEMENT_3D('',#721,#722,#723);
#610=AXIS2_PLACEMENT_3D('',#724,#725,#726);
#611=DIRECTION('',(0.707106781186548,-0.707106781186547,8.65927457071935E-17));
#612=CARTESIAN_POINT('',(0.0,0.0,0.0));
#613=DIRECTION('',(1.0,0.0,0.0));
#614=DIRECTION('',(0.0,1.0,0.0));
#615=DIRECTION('',(-0.707106781186548,-0.707106781186547,8.65927457071935E-17));
#616=CARTESIAN_POINT('',(1.0,0.0,0.0));
#617=DIRECTION('',(1.0,0.0,0.0));
#618=DIRECTION('',(0.0,1.0,0.0));
#619=DIRECTION('',(1.0,-0.0,0.0));
#620=DIRECTION('',(-1.0,-0.0,0.0));
#621=CARTESIAN_POINT('',(13.0,0.0,0.0));
#622=DIRECTION('',(1.0,0.0,0.0));
#623=DIRECTION('',(0.0,1.0,0.0));
#624=DIRECTION('',(0.707106781186548,0.707106781186547,-8.65927457071935E-17));
#625=DIRECTION('',(-0.707106781186548,0.707106781186547,-8.65927457071935E-17));
#626=CARTESIAN_POINT('',(14.0,0.0,0.0));
#627=DIRECTION('',(1.0,0.0,0.0));
#628=DIRECTION('',(0.0,1.0,0.0));
#629=DIRECTION('',(0.707106781186548,-0.707106781186548,8.65927457071936E-17));
#630=CARTESIAN_POINT('',(13.0,0.0,0.0));
#631=DIRECTION('',(1.0,0.0,0.0));
#632=DIRECTION('',(0.0,1.0,0.0));
#633=DIRECTION('',(-0.707106781186548,-0.707106781186548,8.65927457071935E-17));
#634=CARTESIAN_POINT('',(14.0,0.0,0.0));
#635=DIRECTION('',(1.0,0.0,0.0));
#636=DIRECTION('',(0.0,1.0,0.0));
#637=DIRECTION('',(1.0,0.0,0.0));
#638=CARTESIAN_POINT('',(1.0,0.0,0.0));
#639=DIRECTION('',(1.0,0.0,0.0));
#640=DIRECTION('',(0.0,1.0,0.0));
#641=DIRECTION('',(-1.0,-0.0,-0.0));
#642=DIRECTION('',(0.707106781186548,0.707106781186548,-8.65927457071936E-17));
#643=CARTESIAN_POINT('',(0.0,0.0,0.0));
#644=DIRECTION('',(1.0,0.0,0.0));
#645=DIRECTION('',(0.0,1.0,0.0));
#646=DIRECTION('',(-0.707106781186548,0.707106781186548,-8.65927457071935E-17));
#647=DIRECTION('',(-0.707106781186548,-0.707106781186547,8.65927457071936E-17));
#648=CARTESIAN_POINT('',(1.0,0.0,0.0));
#649=DIRECTION('',(1.0,0.0,0.0));
#650=DIRECTION('',(0.0,1.0,0.0));
#651=DIRECTION('',(0.707106781186548,-0.707106781186547,8.65927457071936E-17));
#652=CARTESIAN_POINT('',(0.0,0.0,0.0));
#653=DIRECTION('',(-1.0,0.0,0.0));
#654=DIRECTION('',(0.0,1.0,0.0));
#655=DIRECTION('',(-0.707106781186548,0.707106781186547,-8.65927457071936E-17));
#656=CARTESIAN_POINT('',(1.0,0.0,0.0));
#657=DIRECTION('',(1.0,0.0,0.0));
#658=DIRECTION('',(0.0,1.0,0.0));
#659=DIRECTION('',(0.707106781186548,0.707106781186547,-8.65927457071936E-17));
#660=CARTESIAN_POINT('',(0.0,0.0,0.0));
#661=DIRECTION('',(1.0,0.0,-0.0));
#662=DIRECTION('',(0.0,1.0,0.0));
#663=DIRECTION('',(0.707106781186548,-0.707106781186547,1.29533810381119E-32));
#664=CARTESIAN_POINT('',(13.0,0.0,7.34763812293426E-16));
#665=DIRECTION('',(-1.0,0.0,-1.22460635382238E-16));
#666=DIRECTION('',(0.0,1.0,0.0));
#667=DIRECTION('',(-0.707106781186548,-0.707106781186547,-1.73185491414387E-16));
#668=CARTESIAN_POINT('',(14.0,0.0,8.57224447675664E-16));
#669=DIRECTION('',(1.0,0.0,0.0));
#670=DIRECTION('',(0.0,1.0,0.0));
#671=DIRECTION('',(0.707106781186548,0.707106781186547,1.73185491414387E-16));
#672=CARTESIAN_POINT('',(13.0,0.0,7.34763812293426E-16));
#673=DIRECTION('',(-1.0,0.0,-1.22460635382238E-16));
#674=DIRECTION('',(0.0,1.0,0.0));
#675=DIRECTION('',(-0.707106781186548,0.707106781186547,-1.07915308511766E-32));
#676=CARTESIAN_POINT('',(14.0,0.0,8.57224447675664E-16));
#677=DIRECTION('',(-1.0,0.0,0.0));
#678=DIRECTION('',(0.0,1.0,0.0));
#679=CARTESIAN_POINT('',(14.0,0.0,8.57224447675664E-16));
#680=DIRECTION('',(-1.0,0.0,0.0));
#681=DIRECTION('',(0.0,1.0,0.0));
#682=CARTESIAN_POINT('',(13.0,0.0,7.34763812293426E-16));
#683=DIRECTION('',(-1.0,0.0,-1.22460635382238E-16));
#684=DIRECTION('',(0.0,1.0,0.0));
#685=CARTESIAN_POINT('',(13.0,0.0,7.34763812293426E-16));
#686=DIRECTION('',(-1.0,0.0,-1.22460635382238E-16));
#687=DIRECTION('',(0.0,1.0,0.0));
#688=CARTESIAN_POINT('',(14.0,0.0,8.57224447675664E-16));
#689=DIRECTION('',(1.0,0.0,0.0));
#690=DIRECTION('',(0.0,1.0,0.0));
#691=CARTESIAN_POINT('',(14.0,0.0,0.0));
#692=DIRECTION('',(1.0,0.0,0.0));
#693=DIRECTION('',(0.0,1.0,0.0));
#694=CARTESIAN_POINT('',(0.0,0.0,0.0));
#695=DIRECTION('',(1.0,0.0,-0.0));
#696=DIRECTION('',(0.0,1.0,0.0));
#697=CARTESIAN_POINT('',(1.0,0.0,0.0));
#698=DIRECTION('',(1.0,0.0,0.0));
#699=DIRECTION('',(0.0,1.0,0.0));
#700=CARTESIAN_POINT('',(1.0,0.0,0.0));
#701=DIRECTION('',(1.0,0.0,0.0));
#702=DIRECTION('',(0.0,1.0,0.0));
#703=CARTESIAN_POINT('',(0.0,0.0,0.0));
#704=DIRECTION('',(-1.0,0.0,0.0));
#705=DIRECTION('',(0.0,1.0,0.0));
#706=CARTESIAN_POINT('',(0.0,0.0,0.0));
#707=DIRECTION('',(1.0,0.0,0.0));
#708=DIRECTION('',(0.0,1.0,0.0));
#709=CARTESIAN_POINT('',(1.0,0.0,0.0));
#710=DIRECTION('',(1.0,0.0,0.0));
#711=DIRECTION('',(0.0,1.0,0.0));
#712=CARTESIAN_POINT('',(0.0,0.0,0.0));
#713=DIRECTION('',(1.0,0.0,0.0));
#714=DIRECTION('',(0.0,1.0,0.0));
#715=CARTESIAN_POINT('',(13.0,0.0,0.0));
#716=DIRECTION('',(1.0,0.0,0.0));
#717=DIRECTION('',(0.0,1.0,0.0));
#718=CARTESIAN_POINT('',(14.0,0.0,0.0));
#719=DIRECTION('',(1.0,0.0,0.0));
#720=DIRECTION('',(0.0,1.0,0.0));
#721=CARTESIAN_POINT('',(13.0,0.0,0.0));
#722=DIRECTION('',(1.0,0.0,0.0));
#723=DIRECTION('',(0.0,1.0,0.0));
#724=CARTESIAN_POINT('',(1.0,0.0,0.0));
#725=DIRECTION('',(1.0,0.0,0.0));
#726=DIRECTION('',(0.0,1.0,0.0));
ENDSEC;
END-ISO-10303-21;
